0
SECTION
2
HEADER
9
$INSUNITS
70
4
9
$ACADVER
1
AC1014
9
$HANDSEED
5
FFFF
0
ENDSEC
0
SECTION
2
TABLES
0
TABLE
2
VPORT
5
8
100
AcDbSymbolTable
0
ENDTAB
0
TABLE
2
LTYPE
5
5
100
AcDbSymbolTable
0
LTYPE
5
14
100
AcDbSymbolTableRecord
100
AcDbLinetypeTableRecord
2
BYBLOCK
70
0
0
LTYPE
5
15
100
AcDbSymbolTableRecord
100
AcDbLinetypeTableRecord
2
BYLAYER
70
0
0
ENDTAB
0
TABLE
2
LAYER
5
2
100
AcDbSymbolTable
70
2
0
LAYER
5
50
100
AcDbSymbolTableRecord
100
AcDbLayerTableRecord
2
0
70
0
6
CONTINUOUS
0
ENDTAB
0
TABLE
2
STYLE
5
3
100
AcDbSymbolTable
70
1
0
STYLE
5
11
100
AcDbSymbolTableRecord
100
AcDbTextStyleTableRecord
2
STANDARD
70
0
0
ENDTAB
0
TABLE
2
VIEW
5
6
100
AcDbSymbolTable
70
0
0
ENDTAB
0
TABLE
2
UCS
5
7
100
AcDbSymbolTable
70
0
0
ENDTAB
0
TABLE
2
APPID
5
9
100
AcDbSymbolTable
70
2
0
APPID
5
12
100
AcDbSymbolTableRecord
100
AcDbRegAppTableRecord
2
ACAD
70
0
0
ENDTAB
0
TABLE
2
DIMSTYLE
5
A
100
AcDbSymbolTable
70
1
0
ENDTAB
0
TABLE
2
BLOCK_RECORD
5
1
100
AcDbSymbolTable
70
1
0
BLOCK_RECORD
5
1F
100
AcDbSymbolTableRecord
100
AcDbBlockTableRecord
2
*MODEL_SPACE
0
BLOCK_RECORD
5
1B
100
AcDbSymbolTableRecord
100
AcDbBlockTableRecord
2
*PAPER_SPACE
0
ENDTAB
0
ENDSEC
0
SECTION
2
BLOCKS
0
BLOCK
5
20
100
AcDbEntity
100
AcDbBlockBegin
2
*MODEL_SPACE
0
ENDBLK
5
21
100
AcDbEntity
100
AcDbBlockEnd
0
BLOCK
5
1C
100
AcDbEntity
100
AcDbBlockBegin
2
*PAPER_SPACE
0
ENDBLK
5
1D
100
AcDbEntity
100
AcDbBlockEnd
0
ENDSEC
0
SECTION
2
ENTITIES
0
LWPOLYLINE
5
100
100
AcDbEntity
8
0
100
AcDbPolyline
90
28
70
1
43
0.0
10
-50.750000000000014
20
-24.999999999999993
10
-52.75
20
-22.999999999999993
10
-52.75
20
2.6261801265105531e-15
10
-29.75
20
1.3877787807814457e-15
10
-27.75
20
-1.9999999999999984
10
-27.750000000000004
20
-9.9999999999999982
10
-25.000000000000004
20
-9.9999999999999982
10
-25
20
-2
10
-23
20
0
10
8.8817841970012523e-15
20
-8.8817841970012523e-15
10
-3.3306690738754696e-15
20
-23.000000000000004
10
-2.000000000000004
20
-25
10
-10.000000000000002
20
-25.000000000000004
10
-10
20
-27.75
10
-2.0000000000000053
20
-27.75
10
-5.054097670813005e-15
20
-29.75
10
-8.8817841970012523e-15
20
-52.75
10
-23.000000000000004
20
-52.749999999999993
10
-25
20
-50.749999999999993
10
-24.999999999999982
20
-42.749999999999993
10
-27.749999999999982
20
-42.75
10
-27.749999999999993
20
-50.749999999999993
10
-29.75
20
-52.749999999999993
10
-52.75
20
-52.749999999999993
10
-52.75
20
-29.749999999999996
10
-50.75
20
-27.749999999999989
10
-42.75
20
-27.749999999999972
10
-42.75
20
-24.999999999999972
0
LWPOLYLINE
5
101
100
AcDbEntity
8
0
100
AcDbPolyline
90
28
70
1
43
0.0
10
-87.5
20
-9.9999999999999982
10
-87.5
20
-2
10
-85.5
20
0
10
-62.499999999999993
20
-8.8817841970012523e-15
10
-62.5
20
-23.000000000000004
10
-64.5
20
-25
10
-72.5
20
-25.000000000000004
10
-72.5
20
-27.75
10
-64.5
20
-27.75
10
-62.500000000000007
20
-29.75
10
-62.500000000000007
20
-52.75
10
-85.5
20
-52.749999999999993
10
-87.5
20
-50.749999999999993
10
-87.499999999999986
20
-42.749999999999993
10
-90.249999999999986
20
-42.75
10
-90.249999999999986
20
-50.749999999999993
10
-92.25
20
-52.749999999999993
10
-115.25
20
-52.749999999999993
10
-115.25
20
-29.749999999999996
10
-113.25
20
-27.749999999999989
10
-105.25
20
-27.749999999999972
10
-105.25
20
-24.999999999999972
10
-113.25000000000001
20
-24.999999999999993
10
-115.25
20
-22.999999999999993
10
-115.25
20
2.6261801265105531e-15
10
-92.25
20
1.3877787807814457e-15
10
-90.25
20
-1.9999999999999984
10
-90.25
20
-9.9999999999999982
0
LWPOLYLINE
5
102
100
AcDbEntity
8
0
100
AcDbPolyline
90
28
70
1
43
0.0
10
-150
20
-9.9999999999999982
10
-150
20
-2
10
-148
20
0
10
-125
20
-8.8817841970012523e-15
10
-125
20
-23.000000000000004
10
-127.00000000000001
20
-25
10
-135
20
-25.000000000000004
10
-135
20
-27.75
10
-127.00000000000001
20
-27.75
10
-125
20
-29.75
10
-125
20
-52.75
10
-148
20
-52.749999999999993
10
-150
20
-50.749999999999993
10
-149.99999999999997
20
-42.749999999999993
10
-152.75
20
-42.75
10
-152.75
20
-50.749999999999993
10
-154.75
20
-52.749999999999993
10
-177.75
20
-52.749999999999993
10
-177.75
20
-29.749999999999996
10
-175.75
20
-27.749999999999989
10
-167.75
20
-27.749999999999972
10
-167.75
20
-24.999999999999972
10
-175.75000000000003
20
-24.999999999999993
10
-177.75
20
-22.999999999999993
10
-177.75
20
2.6261801265105531e-15
10
-154.75
20
1.3877787807814457e-15
10
-152.75
20
-1.9999999999999984
10
-152.75
20
-9.9999999999999982
0
LWPOLYLINE
5
103
100
AcDbEntity
8
0
100
AcDbPolyline
90
28
70
1
43
0.0
10
-212.5
20
-9.9999999999999982
10
-212.5
20
-2
10
-210.5
20
0
10
-187.5
20
-8.8817841970012523e-15
10
-187.5
20
-23.000000000000004
10
-189.5
20
-25
10
-197.5
20
-25.000000000000004
10
-197.5
20
-27.75
10
-189.5
20
-27.75
10
-187.5
20
-29.75
10
-187.5
20
-52.75
10
-210.5
20
-52.749999999999993
10
-212.5
20
-50.749999999999993
10
-212.5
20
-42.749999999999993
10
-215.25
20
-42.75
10
-215.25
20
-50.749999999999993
10
-217.25
20
-52.749999999999993
10
-240.25
20
-52.749999999999993
10
-240.25
20
-29.749999999999996
10
-238.25
20
-27.749999999999989
10
-230.25
20
-27.749999999999972
10
-230.25
20
-24.999999999999972
10
-238.25000000000003
20
-24.999999999999993
10
-240.25
20
-22.999999999999993
10
-240.25
20
2.6261801265105531e-15
10
-217.25
20
1.3877787807814457e-15
10
-215.25
20
-1.9999999999999984
10
-215.25
20
-9.9999999999999982
0
LWPOLYLINE
5
104
100
AcDbEntity
8
0
100
AcDbPolyline
90
28
70
1
43
0.0
10
-275
20
-9.9999999999999982
10
-275
20
-2
10
-273
20
0
10
-250
20
-8.8817841970012523e-15
10
-250
20
-23.000000000000004
10
-252
20
-25
10
-260
20
-25.000000000000004
10
-260
20
-27.75
10
-252
20
-27.75
10
-250
20
-29.75
10
-250
20
-52.75
10
-273
20
-52.749999999999993
10
-275
20
-50.749999999999993
10
-275
20
-42.749999999999993
10
-277.75
20
-42.75
10
-277.75
20
-50.749999999999993
10
-279.75
20
-52.749999999999993
10
-302.75
20
-52.749999999999993
10
-302.75
20
-29.749999999999996
10
-300.75
20
-27.749999999999989
10
-292.75
20
-27.749999999999972
10
-292.75
20
-24.999999999999972
10
-300.75
20
-24.999999999999993
10
-302.75
20
-22.999999999999993
10
-302.75
20
2.6261801265105531e-15
10
-279.75
20
1.3877787807814457e-15
10
-277.75
20
-1.9999999999999984
10
-277.75
20
-9.9999999999999982
0
LWPOLYLINE
5
105
100
AcDbEntity
8
0
100
AcDbPolyline
90
28
70
1
43
0.0
10
-25.000000000000004
20
-76.666666666666671
10
-25
20
-68.666666666666671
10
-23
20
-66.666666666666671
10
8.8817841970012523e-15
20
-66.666666666666686
10
-3.3306690738754696e-15
20
-89.666666666666671
10
-2.000000000000004
20
-91.666666666666686
10
-10.000000000000002
20
-91.666666666666686
10
-10
20
-94.416666666666657
10
-2.0000000000000053
20
-94.416666666666657
10
-5.054097670813005e-15
20
-96.416666666666671
10
-8.8817841970012523e-15
20
-119.41666666666666
10
-23.000000000000004
20
-119.41666666666666
10
-25
20
-117.41666666666667
10
-24.999999999999982
20
-109.41666666666666
10
-27.749999999999982
20
-109.41666666666666
10
-27.749999999999993
20
-117.41666666666667
10
-29.75
20
-119.41666666666666
10
-52.75
20
-119.41666666666666
10
-52.75
20
-96.416666666666657
10
-50.75
20
-94.416666666666657
10
-42.75
20
-94.416666666666643
10
-42.75
20
-91.666666666666643
10
-50.750000000000014
20
-91.666666666666657
10
-52.75
20
-89.666666666666671
10
-52.75
20
-66.666666666666671
10
-29.75
20
-66.666666666666671
10
-27.75
20
-68.666666666666671
10
-27.750000000000004
20
-76.666666666666671
0
LWPOLYLINE
5
106
100
AcDbEntity
8
0
100
AcDbPolyline
90
28
70
1
43
0.0
10
-87.5
20
-76.666666666666671
10
-87.5
20
-68.666666666666671
10
-85.5
20
-66.666666666666671
10
-62.499999999999993
20
-66.666666666666686
10
-62.5
20
-89.666666666666671
10
-64.5
20
-91.666666666666686
10
-72.5
20
-91.666666666666686
10
-72.5
20
-94.416666666666657
10
-64.5
20
-94.416666666666657
10
-62.500000000000007
20
-96.416666666666671
10
-62.500000000000007
20
-119.41666666666666
10
-85.5
20
-119.41666666666666
10
-87.5
20
-117.41666666666667
10
-87.499999999999986
20
-109.41666666666666
10
-90.249999999999986
20
-109.41666666666666
10
-90.249999999999986
20
-117.41666666666667
10
-92.25
20
-119.41666666666666
10
-115.25
20
-119.41666666666666
10
-115.25
20
-96.416666666666657
10
-113.25
20
-94.416666666666657
10
-105.25
20
-94.416666666666643
10
-105.25
20
-91.666666666666643
10
-113.25000000000001
20
-91.666666666666657
10
-115.25
20
-89.666666666666671
10
-115.25
20
-66.666666666666671
10
-92.25
20
-66.666666666666671
10
-90.25
20
-68.666666666666671
10
-90.25
20
-76.666666666666671
0
LWPOLYLINE
5
107
100
AcDbEntity
8
0
100
AcDbPolyline
90
28
70
1
43
0.0
10
-150
20
-76.666666666666671
10
-150
20
-68.666666666666671
10
-148
20
-66.666666666666671
10
-125
20
-66.666666666666686
10
-125
20
-89.666666666666671
10
-127.00000000000001
20
-91.666666666666686
10
-135
20
-91.666666666666686
10
-135
20
-94.416666666666657
10
-127.00000000000001
20
-94.416666666666657
10
-125
20
-96.416666666666671
10
-125
20
-119.41666666666666
10
-148
20
-119.41666666666666
10
-150
20
-117.41666666666667
10
-149.99999999999997
20
-109.41666666666666
10
-152.75
20
-109.41666666666666
10
-152.75
20
-117.41666666666667
10
-154.75
20
-119.41666666666666
10
-177.75
20
-119.41666666666666
10
-177.75
20
-96.416666666666657
10
-175.75
20
-94.416666666666657
10
-167.75
20
-94.416666666666643
10
-167.75
20
-91.666666666666643
10
-175.75000000000003
20
-91.666666666666657
10
-177.75
20
-89.666666666666671
10
-177.75
20
-66.666666666666671
10
-154.75
20
-66.666666666666671
10
-152.75
20
-68.666666666666671
10
-152.75
20
-76.666666666666671
0
LWPOLYLINE
5
108
100
AcDbEntity
8
0
100
AcDbPolyline
90
28
70
1
43
0.0
10
-212.5
20
-76.666666666666671
10
-212.5
20
-68.666666666666671
10
-210.5
20
-66.666666666666671
10
-187.5
20
-66.666666666666686
10
-187.5
20
-89.666666666666671
10
-189.5
20
-91.666666666666686
10
-197.5
20
-91.666666666666686
10
-197.5
20
-94.416666666666657
10
-189.5
20
-94.416666666666657
10
-187.5
20
-96.416666666666671
10
-187.5
20
-119.41666666666666
10
-210.5
20
-119.41666666666666
10
-212.5
20
-117.41666666666667
10
-212.5
20
-109.41666666666666
10
-215.25
20
-109.41666666666666
10
-215.25
20
-117.41666666666667
10
-217.25
20
-119.41666666666666
10
-240.25
20
-119.41666666666666
10
-240.25
20
-96.416666666666657
10
-238.25
20
-94.416666666666657
10
-230.25
20
-94.416666666666643
10
-230.25
20
-91.666666666666643
10
-238.25000000000003
20
-91.666666666666657
10
-240.25
20
-89.666666666666671
10
-240.25
20
-66.666666666666671
10
-217.25
20
-66.666666666666671
10
-215.25
20
-68.666666666666671
10
-215.25
20
-76.666666666666671
0
LWPOLYLINE
5
109
100
AcDbEntity
8
0
100
AcDbPolyline
90
28
70
1
43
0.0
10
-275
20
-76.666666666666671
10
-275
20
-68.666666666666671
10
-273
20
-66.666666666666671
10
-250
20
-66.666666666666686
10
-250
20
-89.666666666666671
10
-252
20
-91.666666666666686
10
-260
20
-91.666666666666686
10
-260
20
-94.416666666666657
10
-252
20
-94.416666666666657
10
-250
20
-96.416666666666671
10
-250
20
-119.41666666666666
10
-273
20
-119.41666666666666
10
-275
20
-117.41666666666667
10
-275
20
-109.41666666666666
10
-277.75
20
-109.41666666666666
10
-277.75
20
-117.41666666666667
10
-279.75
20
-119.41666666666666
10
-302.75
20
-119.41666666666666
10
-302.75
20
-96.416666666666657
10
-300.75
20
-94.416666666666657
10
-292.75
20
-94.416666666666643
10
-292.75
20
-91.666666666666643
10
-300.75
20
-91.666666666666657
10
-302.75
20
-89.666666666666671
10
-302.75
20
-66.666666666666671
10
-279.75
20
-66.666666666666671
10
-277.75
20
-68.666666666666671
10
-277.75
20
-76.666666666666671
0
LWPOLYLINE
5
110
100
AcDbEntity
8
0
100
AcDbPolyline
90
28
70
1
43
0.0
10
-25.000000000000004
20
-143.33333333333334
10
-25
20
-135.33333333333334
10
-23
20
-133.33333333333334
10
8.8817841970012523e-15
20
-133.33333333333337
10
-3.3306690738754696e-15
20
-156.33333333333334
10
-2.000000000000004
20
-158.33333333333334
10
-10.000000000000002
20
-158.33333333333334
10
-10
20
-161.08333333333334
10
-2.0000000000000053
20
-161.08333333333334
10
-5.054097670813005e-15
20
-163.08333333333334
10
-8.8817841970012523e-15
20
-186.08333333333334
10
-23.000000000000004
20
-186.08333333333334
10
-25
20
-184.08333333333331
10
-24.999999999999982
20
-176.08333333333334
10
-27.749999999999982
20
-176.08333333333334
10
-27.749999999999993
20
-184.08333333333331
10
-29.75
20
-186.08333333333334
10
-52.75
20
-186.08333333333334
10
-52.75
20
-163.08333333333334
10
-50.75
20
-161.08333333333334
10
-42.75
20
-161.08333333333331
10
-42.75
20
-158.33333333333331
10
-50.750000000000014
20
-158.33333333333331
10
-52.75
20
-156.33333333333331
10
-52.75
20
-133.33333333333334
10
-29.75
20
-133.33333333333334
10
-27.75
20
-135.33333333333334
10
-27.750000000000004
20
-143.33333333333334
0
LWPOLYLINE
5
111
100
AcDbEntity
8
0
100
AcDbPolyline
90
28
70
1
43
0.0
10
-87.5
20
-143.33333333333334
10
-87.5
20
-135.33333333333334
10
-85.5
20
-133.33333333333334
10
-62.499999999999993
20
-133.33333333333337
10
-62.5
20
-156.33333333333334
10
-64.5
20
-158.33333333333334
10
-72.5
20
-158.33333333333334
10
-72.5
20
-161.08333333333334
10
-64.5
20
-161.08333333333334
10
-62.500000000000007
20
-163.08333333333334
10
-62.500000000000007
20
-186.08333333333334
10
-85.5
20
-186.08333333333334
10
-87.5
20
-184.08333333333331
10
-87.499999999999986
20
-176.08333333333334
10
-90.249999999999986
20
-176.08333333333334
10
-90.249999999999986
20
-184.08333333333331
10
-92.25
20
-186.08333333333334
10
-115.25
20
-186.08333333333334
10
-115.25
20
-163.08333333333334
10
-113.25
20
-161.08333333333334
10
-105.25
20
-161.08333333333331
10
-105.25
20
-158.33333333333331
10
-113.25000000000001
20
-158.33333333333331
10
-115.25
20
-156.33333333333331
10
-115.25
20
-133.33333333333334
10
-92.25
20
-133.33333333333334
10
-90.25
20
-135.33333333333334
10
-90.25
20
-143.33333333333334
0
LWPOLYLINE
5
112
100
AcDbEntity
8
0
100
AcDbPolyline
90
28
70
1
43
0.0
10
-150
20
-143.33333333333334
10
-150
20
-135.33333333333334
10
-148
20
-133.33333333333334
10
-125
20
-133.33333333333337
10
-125
20
-156.33333333333334
10
-127.00000000000001
20
-158.33333333333334
10
-135
20
-158.33333333333334
10
-135
20
-161.08333333333334
10
-127.00000000000001
20
-161.08333333333334
10
-125
20
-163.08333333333334
10
-125
20
-186.08333333333334
10
-148
20
-186.08333333333334
10
-150
20
-184.08333333333331
10
-149.99999999999997
20
-176.08333333333334
10
-152.75
20
-176.08333333333334
10
-152.75
20
-184.08333333333331
10
-154.75
20
-186.08333333333334
10
-177.75
20
-186.08333333333334
10
-177.75
20
-163.08333333333334
10
-175.75
20
-161.08333333333334
10
-167.75
20
-161.08333333333331
10
-167.75
20
-158.33333333333331
10
-175.75000000000003
20
-158.33333333333331
10
-177.75
20
-156.33333333333331
10
-177.75
20
-133.33333333333334
10
-154.75
20
-133.33333333333334
10
-152.75
20
-135.33333333333334
10
-152.75
20
-143.33333333333334
0
LWPOLYLINE
5
113
100
AcDbEntity
8
0
100
AcDbPolyline
90
28
70
1
43
0.0
10
-212.5
20
-143.33333333333334
10
-212.5
20
-135.33333333333334
10
-210.5
20
-133.33333333333334
10
-187.5
20
-133.33333333333337
10
-187.5
20
-156.33333333333334
10
-189.5
20
-158.33333333333334
10
-197.5
20
-158.33333333333334
10
-197.5
20
-161.08333333333334
10
-189.5
20
-161.08333333333334
10
-187.5
20
-163.08333333333334
10
-187.5
20
-186.08333333333334
10
-210.5
20
-186.08333333333334
10
-212.5
20
-184.08333333333331
10
-212.5
20
-176.08333333333334
10
-215.25
20
-176.08333333333334
10
-215.25
20
-184.08333333333331
10
-217.25
20
-186.08333333333334
10
-240.25
20
-186.08333333333334
10
-240.25
20
-163.08333333333334
10
-238.25
20
-161.08333333333334
10
-230.25
20
-161.08333333333331
10
-230.25
20
-158.33333333333331
10
-238.25000000000003
20
-158.33333333333331
10
-240.25
20
-156.33333333333331
10
-240.25
20
-133.33333333333334
10
-217.25
20
-133.33333333333334
10
-215.25
20
-135.33333333333334
10
-215.25
20
-143.33333333333334
0
LWPOLYLINE
5
114
100
AcDbEntity
8
0
100
AcDbPolyline
90
28
70
1
43
0.0
10
-275
20
-143.33333333333334
10
-275
20
-135.33333333333334
10
-273
20
-133.33333333333334
10
-250
20
-133.33333333333337
10
-250
20
-156.33333333333334
10
-252
20
-158.33333333333334
10
-260
20
-158.33333333333334
10
-260
20
-161.08333333333334
10
-252
20
-161.08333333333334
10
-250
20
-163.08333333333334
10
-250
20
-186.08333333333334
10
-273
20
-186.08333333333334
10
-275
20
-184.08333333333331
10
-275
20
-176.08333333333334
10
-277.75
20
-176.08333333333334
10
-277.75
20
-184.08333333333331
10
-279.75
20
-186.08333333333334
10
-302.75
20
-186.08333333333334
10
-302.75
20
-163.08333333333334
10
-300.75
20
-161.08333333333334
10
-292.75
20
-161.08333333333331
10
-292.75
20
-158.33333333333331
10
-300.75
20
-158.33333333333331
10
-302.75
20
-156.33333333333331
10
-302.75
20
-133.33333333333334
10
-279.75
20
-133.33333333333334
10
-277.75
20
-135.33333333333334
10
-277.75
20
-143.33333333333334
0
LWPOLYLINE
5
115
100
AcDbEntity
8
0
100
AcDbPolyline
90
28
70
1
43
0.0
10
-25.000000000000004
20
-210
10
-25
20
-202
10
-23
20
-200
10
8.8817841970012523e-15
20
-200
10
-3.3306690738754696e-15
20
-223
10
-2.000000000000004
20
-225
10
-10.000000000000002
20
-225
10
-10
20
-227.75
10
-2.0000000000000053
20
-227.75
10
-5.054097670813005e-15
20
-229.75
10
-8.8817841970012523e-15
20
-252.75
10
-23.000000000000004
20
-252.75
10
-25
20
-250.75
10
-24.999999999999982
20
-242.75
10
-27.749999999999982
20
-242.75
10
-27.749999999999993
20
-250.75
10
-29.75
20
-252.75
10
-52.75
20
-252.75
10
-52.75
20
-229.75
10
-50.75
20
-227.75
10
-42.75
20
-227.75
10
-42.75
20
-224.99999999999997
10
-50.750000000000014
20
-225
10
-52.75
20
-223
10
-52.75
20
-200
10
-29.75
20
-200
10
-27.75
20
-202
10
-27.750000000000004
20
-210
0
LWPOLYLINE
5
116
100
AcDbEntity
8
0
100
AcDbPolyline
90
28
70
1
43
0.0
10
-87.5
20
-210
10
-87.5
20
-202
10
-85.5
20
-200
10
-62.499999999999993
20
-200
10
-62.5
20
-223
10
-64.5
20
-225
10
-72.5
20
-225
10
-72.5
20
-227.75
10
-64.5
20
-227.75
10
-62.500000000000007
20
-229.75
10
-62.500000000000007
20
-252.75
10
-85.5
20
-252.75
10
-87.5
20
-250.75
10
-87.499999999999986
20
-242.75
10
-90.249999999999986
20
-242.75
10
-90.249999999999986
20
-250.75
10
-92.25
20
-252.75
10
-115.25
20
-252.75
10
-115.25
20
-229.75
10
-113.25
20
-227.75
10
-105.25
20
-227.75
10
-105.25
20
-224.99999999999997
10
-113.25000000000001
20
-225
10
-115.25
20
-223
10
-115.25
20
-200
10
-92.25
20
-200
10
-90.25
20
-202
10
-90.25
20
-210
0
LWPOLYLINE
5
117
100
AcDbEntity
8
0
100
AcDbPolyline
90
28
70
1
43
0.0
10
-150
20
-210
10
-150
20
-202
10
-148
20
-200
10
-125
20
-200
10
-125
20
-223
10
-127.00000000000001
20
-225
10
-135
20
-225
10
-135
20
-227.75
10
-127.00000000000001
20
-227.75
10
-125
20
-229.75
10
-125
20
-252.75
10
-148
20
-252.75
10
-150
20
-250.75
10
-149.99999999999997
20
-242.75
10
-152.75
20
-242.75
10
-152.75
20
-250.75
10
-154.75
20
-252.75
10
-177.75
20
-252.75
10
-177.75
20
-229.75
10
-175.75
20
-227.75
10
-167.75
20
-227.75
10
-167.75
20
-224.99999999999997
10
-175.75000000000003
20
-225
10
-177.75
20
-223
10
-177.75
20
-200
10
-154.75
20
-200
10
-152.75
20
-202
10
-152.75
20
-210
0
LWPOLYLINE
5
118
100
AcDbEntity
8
0
100
AcDbPolyline
90
28
70
1
43
0.0
10
-212.5
20
-210
10
-212.5
20
-202
10
-210.5
20
-200
10
-187.5
20
-200
10
-187.5
20
-223
10
-189.5
20
-225
10
-197.5
20
-225
10
-197.5
20
-227.75
10
-189.5
20
-227.75
10
-187.5
20
-229.75
10
-187.5
20
-252.75
10
-210.5
20
-252.75
10
-212.5
20
-250.75
10
-212.5
20
-242.75
10
-215.25
20
-242.75
10
-215.25
20
-250.75
10
-217.25
20
-252.75
10
-240.25
20
-252.75
10
-240.25
20
-229.75
10
-238.25
20
-227.75
10
-230.25
20
-227.75
10
-230.25
20
-224.99999999999997
10
-238.25000000000003
20
-225
10
-240.25
20
-223
10
-240.25
20
-200
10
-217.25
20
-200
10
-215.25
20
-202
10
-215.25
20
-210
0
LWPOLYLINE
5
119
100
AcDbEntity
8
0
100
AcDbPolyline
90
28
70
1
43
0.0
10
-275
20
-210
10
-275
20
-202
10
-273
20
-200
10
-250
20
-200
10
-250
20
-223
10
-252
20
-225
10
-260
20
-225
10
-260
20
-227.75
10
-252
20
-227.75
10
-250
20
-229.75
10
-250
20
-252.75
10
-273
20
-252.75
10
-275
20
-250.75
10
-275
20
-242.75
10
-277.75
20
-242.75
10
-277.75
20
-250.75
10
-279.75
20
-252.75
10
-302.75
20
-252.75
10
-302.75
20
-229.75
10
-300.75
20
-227.75
10
-292.75
20
-227.75
10
-292.75
20
-224.99999999999997
10
-300.75
20
-225
10
-302.75
20
-223
10
-302.75
20
-200
10
-279.75
20
-200
10
-277.75
20
-202
10
-277.75
20
-210
0
ENDSEC
0
SECTION
2
OBJECTS
0
DICTIONARY
5
C
100
AcDbDictionary
3
ACAD_GROUP
350
D
3
ACAD_MLINESTYLE
350
17
0
DICTIONARY
5
D
100
AcDbDictionary
0
DICTIONARY
5
1A
330
C
100
AcDbDictionary
0
DICTIONARY
5
17
100
AcDbDictionary
0
ENDSEC
0
EOF
